ISO-10303-21;
HEADER;
/* Generated by software containing ST-Developer
 * from STEP Tools, Inc. (www.steptools.com) 
 */
/* OPTION: using custom schema-name function */

FILE_DESCRIPTION(
/* description */ (''),
/* implementation_level */ '2;1');

FILE_NAME(
/* name */ 'WIN16 400',
/* time_stamp */ '2009-11-17T09:42:19+01:00',
/* author */ (''),
/* organization */ (''),
/* preprocessor_version */ 'ST-DEVELOPER v9',
/* originating_system */ 'UGS - NX 4.0',
/* authorisation */ '');

FILE_SCHEMA (('AUTOMOTIVE_DESIGN { 1 0 10303 214 1 1 1 1 }'));
ENDSEC;

DATA;
#10=SHAPE_REPRESENTATION_RELATIONSHIP('None',
'relationship between ritBE3C8qvg-None and ritBE3C8qvg-None',#22,#11);
#11=ADVANCED_BREP_SHAPE_REPRESENTATION('ritBE3C8qvg-None',(#46,#47,#48),
#297);
#12=SHAPE_DEFINITION_REPRESENTATION(#13,#22);
#13=PRODUCT_DEFINITION_SHAPE('','',#14);
#14=PRODUCT_DEFINITION(' ','',#16,#15);
#15=PRODUCT_DEFINITION_CONTEXT('part definition',#21,'design');
#16=PRODUCT_DEFINITION_FORMATION_WITH_SPECIFIED_SOURCE(' ',' ',#18,.NOT_KNOWN.);
#17=PRODUCT_RELATED_PRODUCT_CATEGORY('part','',(#18));
#18=PRODUCT('ritBE3C8qvg','ritBE3C8qvg',' ',(#19));
#19=PRODUCT_CONTEXT(' ',#21,'mechanical');
#20=APPLICATION_PROTOCOL_DEFINITION('international standard',
'automotive_design',2001,#21);
#21=APPLICATION_CONTEXT(
'core data for automotive mechanical design processes');
#22=SHAPE_REPRESENTATION('ritBE3C8qvg-None',(#184),#297);
#23=PRESENTATION_LAYER_ASSIGNMENT('90','Layer 90',(#46,#47,#48));
#24=STYLED_ITEM('',(#27),#46);
#25=STYLED_ITEM('',(#28),#47);
#26=STYLED_ITEM('',(#29),#48);
#27=PRESENTATION_STYLE_ASSIGNMENT((#30));
#28=PRESENTATION_STYLE_ASSIGNMENT((#31));
#29=PRESENTATION_STYLE_ASSIGNMENT((#32));
#30=SURFACE_STYLE_USAGE(.BOTH.,#33);
#31=SURFACE_STYLE_USAGE(.BOTH.,#34);
#32=SURFACE_STYLE_USAGE(.BOTH.,#35);
#33=SURFACE_SIDE_STYLE('',(#36));
#34=SURFACE_SIDE_STYLE('',(#37));
#35=SURFACE_SIDE_STYLE('',(#38));
#36=SURFACE_STYLE_FILL_AREA(#39);
#37=SURFACE_STYLE_FILL_AREA(#40);
#38=SURFACE_STYLE_FILL_AREA(#41);
#39=FILL_AREA_STYLE('',(#42));
#40=FILL_AREA_STYLE('',(#43));
#41=FILL_AREA_STYLE('',(#44));
#42=FILL_AREA_STYLE_COLOUR('',#45);
#43=FILL_AREA_STYLE_COLOUR('',#45);
#44=FILL_AREA_STYLE_COLOUR('',#45);
#45=COLOUR_RGB('Medium Faded Blue',0.2,0.2,0.8);
#46=MANIFOLD_SOLID_BREP('',#49);
#47=MANIFOLD_SOLID_BREP('',#50);
#48=MANIFOLD_SOLID_BREP('',#51);
#49=CLOSED_SHELL('',(#58,#59,#60,#61));
#50=CLOSED_SHELL('',(#62,#63,#64,#65));
#51=CLOSED_SHELL('',(#66,#67,#68,#69));
#52=CYLINDRICAL_SURFACE('',#189,8.);
#53=CYLINDRICAL_SURFACE('',#192,8.);
#54=CYLINDRICAL_SURFACE('',#195,8.);
#55=CYLINDRICAL_SURFACE('',#199,8.);
#56=CYLINDRICAL_SURFACE('',#203,8.);
#57=CYLINDRICAL_SURFACE('',#207,8.);
#58=ADVANCED_FACE('',(#76,#77),#70,.T.);
#59=ADVANCED_FACE('',(#78,#79),#52,.T.);
#60=ADVANCED_FACE('',(#80,#81),#71,.T.);
#61=ADVANCED_FACE('',(#82,#83),#53,.T.);
#62=ADVANCED_FACE('',(#84,#85),#54,.T.);
#63=ADVANCED_FACE('',(#86,#87),#72,.T.);
#64=ADVANCED_FACE('',(#88,#89),#55,.T.);
#65=ADVANCED_FACE('',(#90,#91),#73,.T.);
#66=ADVANCED_FACE('',(#92,#93),#56,.T.);
#67=ADVANCED_FACE('',(#94,#95),#74,.T.);
#68=ADVANCED_FACE('',(#96,#97),#57,.T.);
#69=ADVANCED_FACE('',(#98,#99),#75,.T.);
#70=TOROIDAL_SURFACE('',#187,20.0000000000002,8.);
#71=TOROIDAL_SURFACE('',#191,20.0000000000002,8.);
#72=TOROIDAL_SURFACE('',#197,20.0000000000005,8.);
#73=TOROIDAL_SURFACE('',#200,20.0000000000005,8.);
#74=TOROIDAL_SURFACE('',#205,20.,8.);
#75=TOROIDAL_SURFACE('',#208,20.,8.);
#76=FACE_BOUND('',#100,.T.);
#77=FACE_BOUND('',#101,.T.);
#78=FACE_BOUND('',#102,.T.);
#79=FACE_BOUND('',#103,.T.);
#80=FACE_BOUND('',#104,.T.);
#81=FACE_BOUND('',#105,.T.);
#82=FACE_BOUND('',#106,.T.);
#83=FACE_BOUND('',#107,.T.);
#84=FACE_BOUND('',#108,.T.);
#85=FACE_BOUND('',#109,.T.);
#86=FACE_BOUND('',#110,.T.);
#87=FACE_BOUND('',#111,.T.);
#88=FACE_BOUND('',#112,.T.);
#89=FACE_BOUND('',#113,.T.);
#90=FACE_BOUND('',#114,.T.);
#91=FACE_BOUND('',#115,.T.);
#92=FACE_BOUND('',#116,.T.);
#93=FACE_BOUND('',#117,.T.);
#94=FACE_BOUND('',#118,.T.);
#95=FACE_BOUND('',#119,.T.);
#96=FACE_BOUND('',#120,.T.);
#97=FACE_BOUND('',#121,.T.);
#98=FACE_BOUND('',#122,.T.);
#99=FACE_BOUND('',#123,.T.);
#100=EDGE_LOOP('',(#124));
#101=EDGE_LOOP('',(#125));
#102=EDGE_LOOP('',(#126));
#103=EDGE_LOOP('',(#127));
#104=EDGE_LOOP('',(#128));
#105=EDGE_LOOP('',(#129));
#106=EDGE_LOOP('',(#130));
#107=EDGE_LOOP('',(#131));
#108=EDGE_LOOP('',(#132));
#109=EDGE_LOOP('',(#133));
#110=EDGE_LOOP('',(#134));
#111=EDGE_LOOP('',(#135));
#112=EDGE_LOOP('',(#136));
#113=EDGE_LOOP('',(#137));
#114=EDGE_LOOP('',(#138));
#115=EDGE_LOOP('',(#139));
#116=EDGE_LOOP('',(#140));
#117=EDGE_LOOP('',(#141));
#118=EDGE_LOOP('',(#142));
#119=EDGE_LOOP('',(#143));
#120=EDGE_LOOP('',(#144));
#121=EDGE_LOOP('',(#145));
#122=EDGE_LOOP('',(#146));
#123=EDGE_LOOP('',(#147));
#124=ORIENTED_EDGE('',*,*,#160,.T.);
#125=ORIENTED_EDGE('',*,*,#161,.F.);
#126=ORIENTED_EDGE('',*,*,#162,.T.);
#127=ORIENTED_EDGE('',*,*,#160,.F.);
#128=ORIENTED_EDGE('',*,*,#163,.T.);
#129=ORIENTED_EDGE('',*,*,#162,.F.);
#130=ORIENTED_EDGE('',*,*,#163,.F.);
#131=ORIENTED_EDGE('',*,*,#161,.T.);
#132=ORIENTED_EDGE('',*,*,#164,.T.);
#133=ORIENTED_EDGE('',*,*,#165,.F.);
#134=ORIENTED_EDGE('',*,*,#166,.T.);
#135=ORIENTED_EDGE('',*,*,#164,.F.);
#136=ORIENTED_EDGE('',*,*,#167,.T.);
#137=ORIENTED_EDGE('',*,*,#166,.F.);
#138=ORIENTED_EDGE('',*,*,#167,.F.);
#139=ORIENTED_EDGE('',*,*,#165,.T.);
#140=ORIENTED_EDGE('',*,*,#168,.T.);
#141=ORIENTED_EDGE('',*,*,#169,.F.);
#142=ORIENTED_EDGE('',*,*,#170,.T.);
#143=ORIENTED_EDGE('',*,*,#168,.F.);
#144=ORIENTED_EDGE('',*,*,#171,.T.);
#145=ORIENTED_EDGE('',*,*,#170,.F.);
#146=ORIENTED_EDGE('',*,*,#171,.F.);
#147=ORIENTED_EDGE('',*,*,#169,.T.);
#148=VERTEX_POINT('',#261);
#149=VERTEX_POINT('',#263);
#150=VERTEX_POINT('',#266);
#151=VERTEX_POINT('',#269);
#152=VERTEX_POINT('',#273);
#153=VERTEX_POINT('',#275);
#154=VERTEX_POINT('',#278);
#155=VERTEX_POINT('',#281);
#156=VERTEX_POINT('',#285);
#157=VERTEX_POINT('',#287);
#158=VERTEX_POINT('',#290);
#159=VERTEX_POINT('',#293);
#160=EDGE_CURVE('',#148,#148,#172,.T.);
#161=EDGE_CURVE('',#149,#149,#173,.T.);
#162=EDGE_CURVE('',#150,#150,#174,.T.);
#163=EDGE_CURVE('',#151,#151,#175,.T.);
#164=EDGE_CURVE('',#152,#152,#176,.T.);
#165=EDGE_CURVE('',#153,#153,#177,.T.);
#166=EDGE_CURVE('',#154,#154,#178,.T.);
#167=EDGE_CURVE('',#155,#155,#179,.T.);
#168=EDGE_CURVE('',#156,#156,#180,.T.);
#169=EDGE_CURVE('',#157,#157,#181,.T.);
#170=EDGE_CURVE('',#158,#158,#182,.T.);
#171=EDGE_CURVE('',#159,#159,#183,.T.);
#172=CIRCLE('',#185,8.);
#173=CIRCLE('',#186,8.);
#174=CIRCLE('',#188,8.);
#175=CIRCLE('',#190,8.);
#176=CIRCLE('',#193,8.);
#177=CIRCLE('',#194,8.);
#178=CIRCLE('',#196,8.);
#179=CIRCLE('',#198,8.);
#180=CIRCLE('',#201,8.);
#181=CIRCLE('',#202,8.);
#182=CIRCLE('',#204,8.);
#183=CIRCLE('',#206,8.);
#184=AXIS2_PLACEMENT_3D('',#259,#209,#210);
#185=AXIS2_PLACEMENT_3D('',#260,#211,#212);
#186=AXIS2_PLACEMENT_3D('',#262,#213,#214);
#187=AXIS2_PLACEMENT_3D('',#264,#215,#216);
#188=AXIS2_PLACEMENT_3D('',#265,#217,#218);
#189=AXIS2_PLACEMENT_3D('',#267,#219,#220);
#190=AXIS2_PLACEMENT_3D('',#268,#221,#222);
#191=AXIS2_PLACEMENT_3D('',#270,#223,#224);
#192=AXIS2_PLACEMENT_3D('',#271,#225,#226);
#193=AXIS2_PLACEMENT_3D('',#272,#227,#228);
#194=AXIS2_PLACEMENT_3D('',#274,#229,#230);
#195=AXIS2_PLACEMENT_3D('',#276,#231,#232);
#196=AXIS2_PLACEMENT_3D('',#277,#233,#234);
#197=AXIS2_PLACEMENT_3D('',#279,#235,#236);
#198=AXIS2_PLACEMENT_3D('',#280,#237,#238);
#199=AXIS2_PLACEMENT_3D('',#282,#239,#240);
#200=AXIS2_PLACEMENT_3D('',#283,#241,#242);
#201=AXIS2_PLACEMENT_3D('',#284,#243,#244);
#202=AXIS2_PLACEMENT_3D('',#286,#245,#246);
#203=AXIS2_PLACEMENT_3D('',#288,#247,#248);
#204=AXIS2_PLACEMENT_3D('',#289,#249,#250);
#205=AXIS2_PLACEMENT_3D('',#291,#251,#252);
#206=AXIS2_PLACEMENT_3D('',#292,#253,#254);
#207=AXIS2_PLACEMENT_3D('',#294,#255,#256);
#208=AXIS2_PLACEMENT_3D('',#295,#257,#258);
#209=DIRECTION('',(0.,0.,1.));
#210=DIRECTION('',(1.,0.,0.));
#211=DIRECTION('',(-1.,-1.01064309961486E-015,0.));
#212=DIRECTION('',(0.,0.,-1.));
#213=DIRECTION('',(1.,2.02128619922972E-015,0.));
#214=DIRECTION('',(0.,0.,-1.));
#215=DIRECTION('',(0.,0.,-1.));
#216=DIRECTION('',(-1.,0.,0.));
#217=DIRECTION('',(-1.,-1.01064309961486E-015,0.));
#218=DIRECTION('',(0.,0.,-1.));
#219=DIRECTION('',(-1.,0.,0.));
#220=DIRECTION('',(0.,0.,1.));
#221=DIRECTION('',(1.,0.,0.));
#222=DIRECTION('',(0.,0.,-1.));
#223=DIRECTION('',(0.,0.,-1.));
#224=DIRECTION('',(-1.,0.,0.));
#225=DIRECTION('',(-1.,0.,0.));
#226=DIRECTION('',(0.,0.,1.));
#227=DIRECTION('',(1.,2.87293337268134E-015,1.01064309961486E-015));
#228=DIRECTION('',(2.60208521396521E-015,-1.,0.));
#229=DIRECTION('',(1.,2.87293337268134E-015,1.01064309961486E-015));
#230=DIRECTION('',(2.60208521396521E-015,-1.,0.));
#231=DIRECTION('',(1.,-2.08398113580695E-016,4.44089209850106E-016));
#232=DIRECTION('',(8.67361737988404E-016,0.,-1.));
#233=DIRECTION('',(-1.,2.98395567514385E-015,0.));
#234=DIRECTION('',(-2.60208521396521E-015,-1.,0.));
#235=DIRECTION('',(5.55111512312578E-017,1.,6.12303176911189E-017));
#236=DIRECTION('',(0.,-6.12303176911189E-017,1.));
#237=DIRECTION('',(-1.,2.98395567514385E-015,0.));
#238=DIRECTION('',(-2.60208521396521E-015,-1.,0.));
#239=DIRECTION('',(1.,-2.98395567514385E-015,0.));
#240=DIRECTION('',(2.60208521396521E-015,1.,0.));
#241=DIRECTION('',(-5.55111512312578E-017,-1.,-6.12303176911189E-017));
#242=DIRECTION('',(0.,6.12303176911189E-017,-1.));
#243=DIRECTION('',(-1.,-9.1824695995039E-017,2.49094046578174E-015));
#244=DIRECTION('',(2.60208521396521E-015,0.,1.));
#245=DIRECTION('',(-1.,-9.1824695995039E-017,2.49094046578174E-015));
#246=DIRECTION('',(2.60208521396521E-015,0.,1.));
#247=DIRECTION('',(-1.,-7.40842572473828E-016,-2.96059473233375E-016));
#248=DIRECTION('',(8.67361737988404E-016,-1.,0.));
#249=DIRECTION('',(1.,-9.1824695995039E-017,-5.92118946466749E-016));
#250=DIRECTION('',(-8.67361737988404E-016,0.,-1.));
#251=DIRECTION('',(0.,-1.,0.));
#252=DIRECTION('',(0.,0.,-1.));
#253=DIRECTION('',(1.,-9.1824695995039E-017,-5.92118946466749E-016));
#254=DIRECTION('',(-8.67361737988404E-016,0.,-1.));
#255=DIRECTION('',(-1.,9.1824695995039E-017,5.92118946466749E-016));
#256=DIRECTION('',(8.67361737988404E-016,0.,1.));
#257=DIRECTION('',(0.,1.,0.));
#258=DIRECTION('',(0.,0.,1.));
#259=CARTESIAN_POINT('',(0.,0.,0.));
#260=CARTESIAN_POINT('',(-11.9999999999997,-20.0000000000002,0.));
#261=CARTESIAN_POINT('',(-11.9999999999997,-20.0000000000002,-8.));
#262=CARTESIAN_POINT('',(-11.9999999999998,20.0000000000002,0.));
#263=CARTESIAN_POINT('',(-11.9999999999998,20.0000000000002,-8.));
#264=CARTESIAN_POINT('',(-11.9999999999997,0.,0.));
#265=CARTESIAN_POINT('',(11.9999999999998,-20.0000000000002,0.));
#266=CARTESIAN_POINT('',(11.9999999999998,-20.0000000000002,-8.));
#267=CARTESIAN_POINT('',(11.9999999999998,-20.0000000000002,0.));
#268=CARTESIAN_POINT('',(11.9999999999997,20.0000000000002,0.));
#269=CARTESIAN_POINT('',(11.9999999999997,20.0000000000002,-8.));
#270=CARTESIAN_POINT('',(11.9999999999997,0.,0.));
#271=CARTESIAN_POINT('',(11.9999999999997,20.0000000000002,0.));
#272=CARTESIAN_POINT('',(36.0000000000012,-2.25325125176005E-014,20.0000000000005));
#273=CARTESIAN_POINT('',(36.0000000000012,-8.00000000000002,20.0000000000005));
#274=CARTESIAN_POINT('',(59.9999999999989,-2.75340672435367E-014,20.0000000000006));
#275=CARTESIAN_POINT('',(59.9999999999989,-8.00000000000003,20.0000000000006));
#276=CARTESIAN_POINT('',(36.0000000000012,-2.25325125176005E-014,20.0000000000005));
#277=CARTESIAN_POINT('',(36.0000000000012,-2.00832998099557E-014,-20.0000000000005));
#278=CARTESIAN_POINT('',(36.0000000000012,-8.00000000000002,-20.0000000000005));
#279=CARTESIAN_POINT('',(36.0000000000012,-2.13079061637781E-014,6.93889390390723E-015));
#280=CARTESIAN_POINT('',(59.9999999999989,-3.92957092510939E-014,-20.0000000000005));
#281=CARTESIAN_POINT('',(59.9999999999989,-8.00000000000004,-20.0000000000005));
#282=CARTESIAN_POINT('',(48.0000000000001,-3.48824114937107E-015,-20.0000000000005));
#283=CARTESIAN_POINT('',(59.9999999999989,-2.63094608897143E-014,1.73472347597681E-014));
#284=CARTESIAN_POINT('',(-35.9999999999999,2.26859612642593E-014,20.));
#285=CARTESIAN_POINT('',(-35.9999999999999,2.26859612642593E-014,28.));
#286=CARTESIAN_POINT('',(-59.9999999999999,4.90573952488743E-015,20.));
#287=CARTESIAN_POINT('',(-59.9999999999999,4.90573952488743E-015,28.));
#288=CARTESIAN_POINT('',(-35.9999999999999,2.26859612642593E-014,20.));
#289=CARTESIAN_POINT('',(-36.,2.26859612642593E-014,-20.));
#290=CARTESIAN_POINT('',(-36.,2.26859612642593E-014,-28.));
#291=CARTESIAN_POINT('',(-36.,2.26859612642593E-014,0.));
#292=CARTESIAN_POINT('',(-60.,-7.52875835091435E-015,-20.));
#293=CARTESIAN_POINT('',(-60.,-7.52875835091435E-015,-28.));
#294=CARTESIAN_POINT('',(-48.,-8.63065470285481E-015,-20.));
#295=CARTESIAN_POINT('',(-60.,4.90573952488743E-015,-3.46944695195361E-015));
#296=MECHANICAL_DESIGN_GEOMETRIC_PRESENTATION_REPRESENTATION('',(#24,#25,
#26),#297);
#297=(
GEOMETRIC_REPRESENTATION_CONTEXT(3)
GLOBAL_UNCERTAINTY_ASSIGNED_CONTEXT((#298))
GLOBAL_UNIT_ASSIGNED_CONTEXT((#304,#300,#299))
REPRESENTATION_CONTEXT('WIN16 400','TOP_LEVEL_ASSEMBLY_PART')
);
#298=UNCERTAINTY_MEASURE_WITH_UNIT(LENGTH_MEASURE(2.E-005),#304,
'DISTANCE_ACCURACY_VALUE','Maximum Tolerance applied to model');
#299=(
NAMED_UNIT(*)
SI_UNIT($,.STERADIAN.)
SOLID_ANGLE_UNIT()
);
#300=(
CONVERSION_BASED_UNIT('DEGREE',#302)
NAMED_UNIT(#301)
PLANE_ANGLE_UNIT()
);
#301=DIMENSIONAL_EXPONENTS(0.,0.,0.,0.,0.,0.,0.);
#302=PLANE_ANGLE_MEASURE_WITH_UNIT(PLANE_ANGLE_MEASURE(0.0174532925),#303);
#303=(
NAMED_UNIT(*)
PLANE_ANGLE_UNIT()
SI_UNIT($,.RADIAN.)
);
#304=(
LENGTH_UNIT()
NAMED_UNIT(*)
SI_UNIT(.MILLI.,.METRE.)
);
ENDSEC;
END-ISO-10303-21;
